ISO-10303-21;
HEADER;
FILE_DESCRIPTION (( 'STEP AP203' ),
    '1' );
FILE_NAME ('End Cap SDR17_001 115 0140 0090.step',
    '2019-12-16T11:43:29',
    ( '' ),
    ( '' ),
    'SwSTEP 2.0',
    'SolidWorks 2019',
    '' );
FILE_SCHEMA (( 'CONFIG_CONTROL_DESIGN' ));
ENDSEC;

DATA;
#1 = APPROVAL ( #44, 'BELÝRTÝLMEMÝÞ' ) ;
#2 = AXIS2_PLACEMENT_3D ( 'NONE', #150, #241, #27 ) ;
#3 = DIRECTION ( 'NONE',  ( -1.000000000000000000, 0.0000000000000000000, 0.0000000000000000000 ) ) ;
#4 = CIRCLE ( 'NONE', #219, 180.0000000000000000 ) ;
#5 = DIRECTION ( 'NONE',  ( -0.0000000000000000000, -1.000000000000000000, -0.0000000000000000000 ) ) ;
#6 = DIRECTION ( 'NONE',  ( -0.0000000000000000000, -1.000000000000000000, -0.0000000000000000000 ) ) ;
#7 = FACE_OUTER_BOUND ( 'NONE', #70, .T. ) ;
#8 = ORIENTED_EDGE ( 'NONE', *, *, #267, .T. ) ;
#9 = AXIS2_PLACEMENT_3D ( 'NONE', #226, #6, #103 ) ;
#10 = CARTESIAN_POINT ( 'NONE',  ( 5.510910596163087978E-15, 0.0000000000000000000, 44.99999999999999289 ) ) ;
#11 = ORIENTED_EDGE ( 'NONE', *, *, #138, .F. ) ;
#12 = ADVANCED_FACE ( 'NONE', ( #192 ), #109, .T. ) ;
#13 = VERTEX_POINT ( 'NONE', #72 ) ;
#14 = AXIS2_PLACEMENT_3D ( 'NONE', #195, #283, #74 ) ;
#15 = CC_DESIGN_SECURITY_CLASSIFICATION ( #71, ( #294 ) ) ;
#16 = ORIENTED_EDGE ( 'NONE', *, *, #102, .T. ) ;
#17 = COORDINATED_UNIVERSAL_TIME_OFFSET ( 3, 0, .AHEAD. ) ;
#18 = PERSON_AND_ORGANIZATION ( #247, #45 ) ;
#19 = CALENDAR_DATE ( 2019, 16, 12 ) ;
#20 = AXIS2_PLACEMENT_3D ( 'NONE', #157, #250, #36 ) ;
#21 = VERTEX_POINT ( 'NONE', #147 ) ;
#22 = EDGE_CURVE ( 'NONE', #97, #128, #24, .T. ) ;
#23 = EDGE_LOOP ( 'NONE', ( #279, #302 ) ) ;
#24 = LINE ( 'NONE', #123, #95 ) ;
#25 = CIRCLE ( 'NONE', #202, 180.0000000000000000 ) ;
#26 = LINE ( 'NONE', #124, #54 ) ;
#27 = DIRECTION ( 'NONE',  ( 0.0000000000000000000, 0.0000000000000000000, -1.000000000000000000 ) ) ;
#28 = DIRECTION ( 'NONE',  ( -0.0000000000000000000, -1.000000000000000000, -0.0000000000000000000 ) ) ;
#29 = LOCAL_TIME ( 14, 43, 29.00000000000000000, #65 ) ;
#30 = DIRECTION ( 'NONE',  ( -1.000000000000000000, 0.0000000000000000000, 0.0000000000000000000 ) ) ;
#31 = DIRECTION ( 'NONE',  ( 0.0000000000000000000, 0.0000000000000000000, -1.000000000000000000 ) ) ;
#32 = EDGE_CURVE ( 'NONE', #97, #220, #84, .T. ) ;
#33 = DIRECTION ( 'NONE',  ( 0.0000000000000000000, 0.0000000000000000000, -1.000000000000000000 ) ) ;
#34 = AXIS2_PLACEMENT_3D ( 'NONE', #178, #270, #57 ) ;
#35 = PRODUCT_DEFINITION_SHAPE ( 'NONE', 'NONE',  #126 ) ;
#36 = DIRECTION ( 'NONE',  ( 0.0000000000000000000, 0.0000000000000000000, -1.000000000000000000 ) ) ;
#37 = APPROVAL ( #186, 'BELÝRTÝLMEMÝÞ' ) ;
#38 = DIRECTION ( 'NONE',  ( 1.000000000000000000, 0.0000000000000000000, 0.0000000000000000000 ) ) ;
#39 = CIRCLE ( 'NONE', #122, 45.00000000000000711 ) ;
#40 = ORIENTED_EDGE ( 'NONE', *, *, #281, .F. ) ;
#41 = APPROVAL_DATE_TIME ( #254, #181 ) ;
#42 = VERTEX_POINT ( 'NONE', #282 ) ;
#43 = APPROVAL_DATE_TIME ( #257, #37 ) ;
#44 = APPROVAL_STATUS ( 'not_yet_approved' ) ;
#45 = ORGANIZATION ( 'BELÝRTÝLMEMÝÞ', 'BELÝRTÝLMEMÝÞ', '' ) ;
#46 = ADVANCED_FACE ( 'NONE', ( #73 ), #69, .T. ) ;
#47 = VERTEX_POINT ( 'NONE', #263 ) ;
#48 = DIRECTION ( 'NONE',  ( 0.0000000000000000000, 0.0000000000000000000, -1.000000000000000000 ) ) ;
#49 = CARTESIAN_POINT ( 'NONE',  ( 0.0000000000000000000, -91.33063719528402657, 0.0000000000000000000 ) ) ;
#50 = AXIS2_PLACEMENT_3D ( 'NONE', #199, #289, #81 ) ;
#51 = CYLINDRICAL_SURFACE ( 'NONE', #2, 44.99999999999999289 ) ;
#52 = DIRECTION ( 'NONE',  ( 0.0000000000000000000, 0.0000000000000000000, -1.000000000000000000 ) ) ;
#53 = DIRECTION ( 'NONE',  ( 0.0000000000000000000, 0.0000000000000000000, -1.000000000000000000 ) ) ;
#54 = VECTOR ( 'NONE', #222, 1000.000000000000000 ) ;
#55 = EDGE_CURVE ( 'NONE', #42, #261, #26, .T. ) ;
#56 = CYLINDRICAL_SURFACE ( 'NONE', #264, 39.59999999999999432 ) ;
#57 = DIRECTION ( 'NONE',  ( 0.0000000000000000000, 0.0000000000000000000, -1.000000000000000000 ) ) ;
#58 = DIRECTION ( 'NONE',  ( 0.0000000000000000000, 0.0000000000000000000, -1.000000000000000000 ) ) ;
#59 = PRODUCT_RELATED_PRODUCT_CATEGORY ( 'detail', '', ( #106 ) ) ;
#60 = AXIS2_PLACEMENT_3D ( 'NONE', #108, #204, #293 ) ;
#61 = EDGE_LOOP ( 'NONE', ( #183, #86, #110 ) ) ;
#62 = COORDINATED_UNIVERSAL_TIME_OFFSET ( 3, 0, .AHEAD. ) ;
#63 = ORIENTED_EDGE ( 'NONE', *, *, #281, .T. ) ;
#64 = CIRCLE ( 'NONE', #239, 39.60000000000000142 ) ;
#65 = COORDINATED_UNIVERSAL_TIME_OFFSET ( 3, 0, .AHEAD. ) ;
#66 = DATE_AND_TIME ( #278, #245 ) ;
#67 = CC_DESIGN_PERSON_AND_ORGANIZATION_ASSIGNMENT ( #112, #209, ( #106 ) ) ;
#68 = AXIS2_PLACEMENT_3D ( 'NONE', #49, #149, #240 ) ;
#69 = TOROIDAL_SURFACE ( 'NONE', #68, 1.224499805707239153, 180.0000000000000000 ) ;
#70 = EDGE_LOOP ( 'NONE', ( #288, #8, #11, #94 ) ) ;
#71 = SECURITY_CLASSIFICATION ( '', '', #213 ) ;
#72 = CARTESIAN_POINT ( 'NONE',  ( -9.974659986866640793E-15, 88.66519775715542551, 0.0000000000000000000 ) ) ;
#73 = FACE_OUTER_BOUND ( 'NONE', #218, .T. ) ;
#74 = DIRECTION ( 'NONE',  ( 0.0000000000000000000, 0.0000000000000000000, -1.000000000000000000 ) ) ;
#75 = VECTOR ( 'NONE', #107, 1000.000000000000000 ) ;
#76 = PLANE ( 'NONE',  #79 ) ;
#77 = DIRECTION ( 'NONE',  ( -1.224646799147353207E-16, 0.0000000000000000000, -1.000000000000000000 ) ) ;
#78 = ADVANCED_FACE ( 'NONE', ( #307 ), #99, .F. ) ;
#79 = AXIS2_PLACEMENT_3D ( 'NONE', #175, #266, #52 ) ;
#80 = AXIS2_PLACEMENT_3D ( 'NONE', #306, #98, #194 ) ;
#81 = DIRECTION ( 'NONE',  ( -1.224646799147353207E-16, 0.0000000000000000000, -1.000000000000000000 ) ) ;
#82 = CYLINDRICAL_SURFACE ( 'NONE', #34, 44.99999999999999289 ) ;
#83 = DIRECTION ( 'NONE',  ( -0.0000000000000000000, -1.000000000000000000, -0.0000000000000000000 ) ) ;
#84 = CIRCLE ( 'NONE', #80, 44.99999999999997868 ) ;
#85 = LOCAL_TIME ( 14, 43, 29.00000000000000000, #62 ) ;
#86 = ORIENTED_EDGE ( 'NONE', *, *, #217, .T. ) ;
#87 = PERSON_AND_ORGANIZATION ( #247, #45 ) ;
#88 = VERTEX_POINT ( 'NONE', #174 ) ;
#89 = ADVANCED_FACE ( 'NONE', ( #265 ), #51, .T. ) ;
#90 = PERSON_AND_ORGANIZATION ( #247, #45 ) ;
#91 = TOROIDAL_SURFACE ( 'NONE', #133, 1.224499805707239153, 174.6001288158563796 ) ;
#92 = PERSON_AND_ORGANIZATION_ROLE ( 'classification_officer' ) ;
#93 = CC_DESIGN_PERSON_AND_ORGANIZATION_ASSIGNMENT ( #142, #234, ( #294 ) ) ;
#94 = ORIENTED_EDGE ( 'NONE', *, *, #22, .F. ) ;
#95 = VECTOR ( 'NONE', #221, 1000.000000000000000 ) ;
#96 = AXIS2_PLACEMENT_3D ( 'NONE', #172, #262, #48 ) ;
#97 = VERTEX_POINT ( 'NONE', #125 ) ;
#98 = DIRECTION ( 'NONE',  ( -0.0000000000000000000, -1.000000000000000000, -0.0000000000000000000 ) ) ;
#99 = CYLINDRICAL_SURFACE ( 'NONE', #14, 39.59999999999999432 ) ;
#100 = DIRECTION ( 'NONE',  ( 0.0000000000000000000, 0.0000000000000000000, 1.000000000000000000 ) ) ;
#101 = DIRECTION ( 'NONE',  ( 0.0000000000000000000, 0.0000000000000000000, -1.000000000000000000 ) ) ;
#102 = EDGE_CURVE ( 'NONE', #13, #97, #4, .T. ) ;
#103 = DIRECTION ( 'NONE',  ( 0.0000000000000000000, 0.0000000000000000000, -1.000000000000000000 ) ) ;
#104 = CARTESIAN_POINT ( 'NONE',  ( 0.0000000000000000000, -91.33063719528402657, 0.0000000000000000000 ) ) ;
#105 = CIRCLE ( 'NONE', #277, 174.6001288158563796 ) ;
#106 = PRODUCT ( 'End Cap SDR17_001 115 0140 0090', 'End Cap SDR17_001 115 0140 0090', '', ( #137 ) ) ;
#107 = DIRECTION ( 'NONE',  ( -0.0000000000000000000, -1.000000000000000000, -0.0000000000000000000 ) ) ;
#108 = CARTESIAN_POINT ( 'NONE',  ( 0.0000000000000000000, -91.33063719528402657, 0.0000000000000000000 ) ) ;
#109 = TOROIDAL_SURFACE ( 'NONE', #96, 1.224499805707239153, 180.0000000000000000 ) ;
#110 = ORIENTED_EDGE ( 'NONE', *, *, #295, .T. ) ;
#111 = APPROVAL_PERSON_ORGANIZATION ( #258, #1, #143 ) ;
#112 = PERSON_AND_ORGANIZATION ( #247, #45 ) ;
#113 = ADVANCED_FACE ( 'NONE', ( #197, #285 ), #76, .T. ) ;
#114 = ORIENTED_EDGE ( 'NONE', *, *, #273, .F. ) ;
#115 = CALENDAR_DATE ( 2019, 16, 12 ) ;
#116 = PERSON_AND_ORGANIZATION_ROLE ( 'design_supplier' ) ;
#117 = CIRCLE ( 'NONE', #284, 44.99999999999997868 ) ;
#118 = DATE_AND_TIME ( #19, #280 ) ;
#119 = ORIENTED_EDGE ( 'NONE', *, *, #200, .F. ) ;
#120 = ORIENTED_EDGE ( 'NONE', *, *, #55, .T. ) ;
#121 = CLOSED_SHELL ( 'NONE', ( #305, #46, #244, #78, #227, #113, #89, #12, #233 ) ) ;
#122 = AXIS2_PLACEMENT_3D ( 'NONE', #243, #28, #127 ) ;
#123 = CARTESIAN_POINT ( 'NONE',  ( 0.0000000000000000000, 0.0000000000000000000, -44.99999999999999289 ) ) ;
#124 = CARTESIAN_POINT ( 'NONE',  ( 0.0000000000000000000, 0.0000000000000000000, -39.59999999999999432 ) ) ;
#125 = CARTESIAN_POINT ( 'NONE',  ( 0.0000000000000000000, 83.26519775715540561, -44.99999999999997868 ) ) ;
#126 = PRODUCT_DEFINITION ( 'BÝLÝNMEYEN', '', #294, #168 ) ;
#127 = DIRECTION ( 'NONE',  ( 0.0000000000000000000, 0.0000000000000000000, -1.000000000000000000 ) ) ;
#128 = VERTEX_POINT ( 'NONE', #152 ) ;
#129 = LOCAL_TIME ( 14, 43, 29.00000000000000000, #17 ) ;
#130 = DIRECTION ( 'NONE',  ( 0.0000000000000000000, 0.0000000000000000000, 1.000000000000000000 ) ) ;
#131 = FACE_OUTER_BOUND ( 'NONE', #231, .T. ) ;
#132 = CARTESIAN_POINT ( 'NONE',  ( 0.0000000000000000000, 0.0000000000000000000, -39.60000000000000142 ) ) ;
#133 = AXIS2_PLACEMENT_3D ( 'NONE', #104, #201, #291 ) ;
#134 = FACE_OUTER_BOUND ( 'NONE', #61, .T. ) ;
#135 =( NAMED_UNIT ( * ) SI_UNIT ( $, .STERADIAN. ) SOLID_ANGLE_UNIT ( ) );
#136 = MANIFOLD_SOLID_BREP ( 'Döndür1', #121 ) ;
#137 = MECHANICAL_CONTEXT ( 'NONE', #216, 'mechanical' ) ;
#138 = EDGE_CURVE ( 'NONE', #128, #189, #39, .T. ) ;
#139 = EDGE_LOOP ( 'NONE', ( #119, #141 ) ) ;
#140 = PERSON_AND_ORGANIZATION ( #247, #45 ) ;
#141 = ORIENTED_EDGE ( 'NONE', *, *, #171, .F. ) ;
#142 = PERSON_AND_ORGANIZATION ( #247, #45 ) ;
#143 = APPROVAL_ROLE ( '' ) ;
#144 =( GEOMETRIC_REPRESENTATION_CONTEXT ( 3 ) GLOBAL_UNCERTAINTY_ASSIGNED_CONTEXT ( ( #242 ) ) GLOBAL_UNIT_ASSIGNED_CONTEXT ( ( #180, #159, #135 ) ) REPRESENTATION_CONTEXT ( 'NONE', 'WORKASPACE' ) );
#145 = EDGE_LOOP ( 'NONE', ( #298, #16, #40 ) ) ;
#146 = EDGE_CURVE ( 'NONE', #189, #128, #290, .T. ) ;
#147 = CARTESIAN_POINT ( 'NONE',  ( -1.953133081950916448E-14, 83.26519775715540561, 0.0000000000000000000 ) ) ;
#148 = CIRCLE ( 'NONE', #9, 39.60000000000000142 ) ;
#149 = DIRECTION ( 'NONE',  ( -0.0000000000000000000, -1.000000000000000000, -0.0000000000000000000 ) ) ;
#150 = CARTESIAN_POINT ( 'NONE',  ( 0.0000000000000000000, 0.0000000000000000000, 0.0000000000000000000 ) ) ;
#151 = CC_DESIGN_PERSON_AND_ORGANIZATION_ASSIGNMENT ( #18, #116, ( #294 ) ) ;
#152 = CARTESIAN_POINT ( 'NONE',  ( 0.0000000000000000000, 0.0000000000000000000, -45.00000000000000711 ) ) ;
#153 = CARTESIAN_POINT ( 'NONE',  ( 5.510910596163089556E-15, 0.0000000000000000000, 45.00000000000000000 ) ) ;
#154 = CC_DESIGN_APPROVAL ( #1, ( #71 ) ) ;
#155 = CARTESIAN_POINT ( 'NONE',  ( 0.0000000000000000000, 0.0000000000000000000, 0.0000000000000000000 ) ) ;
#156 = CARTESIAN_POINT ( 'NONE',  ( 0.0000000000000000000, 78.99999999999998579, 0.0000000000000000000 ) ) ;
#157 = CARTESIAN_POINT ( 'NONE',  ( 0.0000000000000000000, 78.99999999999998579, 0.0000000000000000000 ) ) ;
#158 = CIRCLE ( 'NONE', #20, 39.59999999999999432 ) ;
#159 =( NAMED_UNIT ( * ) PLANE_ANGLE_UNIT ( ) SI_UNIT ( $, .RADIAN. ) );
#160 = EDGE_CURVE ( 'NONE', #13, #220, #25, .T. ) ;
#161 = CARTESIAN_POINT ( 'NONE',  ( 0.0000000000000000000, 0.0000000000000000000, 0.0000000000000000000 ) ) ;
#162 = EDGE_LOOP ( 'NONE', ( #256, #272, #238, #237 ) ) ;
#163 = CALENDAR_DATE ( 2019, 16, 12 ) ;
#164 = ORIENTED_EDGE ( 'NONE', *, *, #267, .F. ) ;
#165 = AXIS2_PLACEMENT_3D ( 'NONE', #225, #5, #101 ) ;
#166 = CALENDAR_DATE ( 2019, 16, 12 ) ;
#167 = DATE_TIME_ROLE ( 'classification_date' ) ;
#168 = DESIGN_CONTEXT ( 'detailed design', #229, 'design' ) ;
#169 = APPROVAL_PERSON_ORGANIZATION ( #90, #37, #276 ) ;
#170 = ORIENTED_EDGE ( 'NONE', *, *, #200, .T. ) ;
#171 = EDGE_CURVE ( 'NONE', #88, #261, #64, .T. ) ;
#172 = CARTESIAN_POINT ( 'NONE',  ( 0.0000000000000000000, -91.33063719528402657, 0.0000000000000000000 ) ) ;
#173 = CIRCLE ( 'NONE', #214, 39.59999999999999432 ) ;
#174 = CARTESIAN_POINT ( 'NONE',  ( 4.849601324623518809E-15, 0.0000000000000000000, 39.60000000000000142 ) ) ;
#175 = CARTESIAN_POINT ( 'NONE',  ( 39.60000000000000142, 0.0000000000000000000, 0.0000000000000000000 ) ) ;
#176 = CARTESIAN_POINT ( 'NONE',  ( 0.0000000000000000000, 0.0000000000000000000, 0.0000000000000000000 ) ) ;
#177 = CARTESIAN_POINT ( 'NONE',  ( 5.510910596163087189E-15, 83.26519775715540561, 44.99999999999997868 ) ) ;
#178 = CARTESIAN_POINT ( 'NONE',  ( 0.0000000000000000000, 0.0000000000000000000, 0.0000000000000000000 ) ) ;
#179 = CARTESIAN_POINT ( 'NONE',  ( 0.0000000000000000000, 83.26519775715540561, 0.0000000000000000000 ) ) ;
#180 =( LENGTH_UNIT ( ) NAMED_UNIT ( * ) SI_UNIT ( .MILLI., .METRE. ) );
#181 = APPROVAL ( #184, 'BELÝRTÝLMEMÝÞ' ) ;
#182 = AXIS2_PLACEMENT_3D ( 'NONE', #161, #252, #38 ) ;
#183 = ORIENTED_EDGE ( 'NONE', *, *, #190, .F. ) ;
#184 = APPROVAL_STATUS ( 'not_yet_approved' ) ;
#185 = ORIENTED_EDGE ( 'NONE', *, *, #146, .F. ) ;
#186 = APPROVAL_STATUS ( 'not_yet_approved' ) ;
#187 = CIRCLE ( 'NONE', #50, 174.6001288158563796 ) ;
#188 = COORDINATED_UNIVERSAL_TIME_OFFSET ( 3, 0, .AHEAD. ) ;
#189 = VERTEX_POINT ( 'NONE', #153 ) ;
#190 = EDGE_CURVE ( 'NONE', #21, #42, #105, .T. ) ;
#191 = ADVANCED_BREP_SHAPE_REPRESENTATION ( 'End Cap SDR17_001 115 0140 0090', ( #136, #182 ), #144 ) ;
#192 = FACE_OUTER_BOUND ( 'NONE', #145, .T. ) ;
#193 = ORIENTED_EDGE ( 'NONE', *, *, #102, .F. ) ;
#194 = DIRECTION ( 'NONE',  ( 0.0000000000000000000, 0.0000000000000000000, -1.000000000000000000 ) ) ;
#195 = CARTESIAN_POINT ( 'NONE',  ( 0.0000000000000000000, 0.0000000000000000000, 0.0000000000000000000 ) ) ;
#196 = TOROIDAL_SURFACE ( 'NONE', #60, 1.224499805707239153, 174.6001288158563796 ) ;
#197 = FACE_OUTER_BOUND ( 'NONE', #23, .T. ) ;
#198 = CARTESIAN_POINT ( 'NONE',  ( 1.499579767615926360E-16, -91.33063719528402657, 1.224499805707239153 ) ) ;
#199 = CARTESIAN_POINT ( 'NONE',  ( 1.499579767615926360E-16, -91.33063719528402657, 1.224499805707239153 ) ) ;
#200 = EDGE_CURVE ( 'NONE', #261, #88, #148, .T. ) ;
#201 = DIRECTION ( 'NONE',  ( -0.0000000000000000000, -1.000000000000000000, -0.0000000000000000000 ) ) ;
#202 = AXIS2_PLACEMENT_3D ( 'NONE', #198, #287, #77 ) ;
#203 = LINE ( 'NONE', #292, #251 ) ;
#204 = DIRECTION ( 'NONE',  ( -0.0000000000000000000, -1.000000000000000000, -0.0000000000000000000 ) ) ;
#205 = CC_DESIGN_PERSON_AND_ORGANIZATION_ASSIGNMENT ( #300, #92, ( #71 ) ) ;
#206 = APPLICATION_PROTOCOL_DEFINITION ( 'international standard', 'config_control_design', 1994, #216 ) ;
#207 = CC_DESIGN_APPROVAL ( #37, ( #294 ) ) ;
#208 = EDGE_LOOP ( 'NONE', ( #114, #304, #120, #170 ) ) ;
#209 = PERSON_AND_ORGANIZATION_ROLE ( 'design_owner' ) ;
#210 = EDGE_LOOP ( 'NONE', ( #164, #63, #275, #185 ) ) ;
#211 = DATE_AND_TIME ( #115, #129 ) ;
#212 = ORIENTED_EDGE ( 'NONE', *, *, #32, .F. ) ;
#213 = SECURITY_CLASSIFICATION_LEVEL ( 'unclassified' ) ;
#214 = AXIS2_PLACEMENT_3D ( 'NONE', #156, #249, #33 ) ;
#215 = APPROVAL_DATE_TIME ( #118, #1 ) ;
#216 = APPLICATION_CONTEXT ( 'configuration controlled 3d designs of mechanical parts and assemblies' ) ;
#217 = EDGE_CURVE ( 'NONE', #21, #47, #187, .T. ) ;
#218 = EDGE_LOOP ( 'NONE', ( #193, #303, #212 ) ) ;
#219 = AXIS2_PLACEMENT_3D ( 'NONE', #223, #3, #100 ) ;
#220 = VERTEX_POINT ( 'NONE', #177 ) ;
#221 = DIRECTION ( 'NONE',  ( -0.0000000000000000000, -1.000000000000000000, -0.0000000000000000000 ) ) ;
#222 = DIRECTION ( 'NONE',  ( -0.0000000000000000000, -1.000000000000000000, -0.0000000000000000000 ) ) ;
#223 = CARTESIAN_POINT ( 'NONE',  ( 0.0000000000000000000, -91.33063719528402657, -1.224499805707239153 ) ) ;
#224 = APPROVAL_PERSON_ORGANIZATION ( #87, #181, #274 ) ;
#225 = CARTESIAN_POINT ( 'NONE',  ( 0.0000000000000000000, 0.0000000000000000000, 0.0000000000000000000 ) ) ;
#226 = CARTESIAN_POINT ( 'NONE',  ( 0.0000000000000000000, 0.0000000000000000000, 0.0000000000000000000 ) ) ;
#227 = ADVANCED_FACE ( 'NONE', ( #269 ), #56, .F. ) ;
#228 = LINE ( 'NONE', #10, #75 ) ;
#229 = APPLICATION_CONTEXT ( 'configuration controlled 3d designs of mechanical parts and assemblies' ) ;
#230 = ORIENTED_EDGE ( 'NONE', *, *, #255, .T. ) ;
#231 = EDGE_LOOP ( 'NONE', ( #253, #296, #230 ) ) ;
#232 = PERSON_AND_ORGANIZATION_ROLE ( 'creator' ) ;
#233 = ADVANCED_FACE ( 'NONE', ( #131 ), #91, .F. ) ;
#234 = PERSON_AND_ORGANIZATION_ROLE ( 'creator' ) ;
#235 = COORDINATED_UNIVERSAL_TIME_OFFSET ( 3, 0, .AHEAD. ) ;
#236 = CC_DESIGN_PERSON_AND_ORGANIZATION_ASSIGNMENT ( #140, #232, ( #126 ) ) ;
#237 = ORIENTED_EDGE ( 'NONE', *, *, #55, .F. ) ;
#238 = ORIENTED_EDGE ( 'NONE', *, *, #171, .T. ) ;
#239 = AXIS2_PLACEMENT_3D ( 'NONE', #176, #268, #53 ) ;
#240 = DIRECTION ( 'NONE',  ( 0.0000000000000000000, 0.0000000000000000000, -1.000000000000000000 ) ) ;
#241 = DIRECTION ( 'NONE',  ( -0.0000000000000000000, -1.000000000000000000, -0.0000000000000000000 ) ) ;
#242 = UNCERTAINTY_MEASURE_WITH_UNIT (LENGTH_MEASURE( 1.000000000000000082E-05 ), #180, 'distance_accuracy_value', 'NONE');
#243 = CARTESIAN_POINT ( 'NONE',  ( 0.0000000000000000000, 0.0000000000000000000, 0.0000000000000000000 ) ) ;
#244 = ADVANCED_FACE ( 'NONE', ( #7 ), #82, .T. ) ;
#245 = LOCAL_TIME ( 14, 43, 29.00000000000000000, #188 ) ;
#246 = CARTESIAN_POINT ( 'NONE',  ( 0.0000000000000000000, -91.33063719528402657, -1.224499805707239153 ) ) ;
#247 = PERSON ( 'BELÝRTÝLMEMÝÞ', 'BELÝRTÝLMEMÝÞ', 'BELÝRTÝLMEMÝÞ', ('BELÝRTÝLMEMÝÞ'), ('BELÝRTÝLMEMÝÞ'), ('BELÝRTÝLMEMÝÞ') ) ;
#248 = DIRECTION ( 'NONE',  ( -0.0000000000000000000, -1.000000000000000000, -0.0000000000000000000 ) ) ;
#249 = DIRECTION ( 'NONE',  ( -0.0000000000000000000, -1.000000000000000000, -0.0000000000000000000 ) ) ;
#250 = DIRECTION ( 'NONE',  ( -0.0000000000000000000, -1.000000000000000000, -0.0000000000000000000 ) ) ;
#251 = VECTOR ( 'NONE', #83, 1000.000000000000000 ) ;
#252 = DIRECTION ( 'NONE',  ( 0.0000000000000000000, 0.0000000000000000000, 1.000000000000000000 ) ) ;
#253 = ORIENTED_EDGE ( 'NONE', *, *, #217, .F. ) ;
#254 = DATE_AND_TIME ( #163, #85 ) ;
#255 = EDGE_CURVE ( 'NONE', #42, #47, #173, .T. ) ;
#256 = ORIENTED_EDGE ( 'NONE', *, *, #295, .F. ) ;
#257 = DATE_AND_TIME ( #166, #29 ) ;
#258 = PERSON_AND_ORGANIZATION ( #247, #45 ) ;
#259 = CC_DESIGN_DATE_AND_TIME_ASSIGNMENT ( #66, #167, ( #71 ) ) ;
#260 = CC_DESIGN_APPROVAL ( #181, ( #126 ) ) ;
#261 = VERTEX_POINT ( 'NONE', #132 ) ;
#262 = DIRECTION ( 'NONE',  ( -0.0000000000000000000, -1.000000000000000000, -0.0000000000000000000 ) ) ;
#263 = CARTESIAN_POINT ( 'NONE',  ( 4.849601324623518020E-15, 78.99999999999998579, 39.59999999999999432 ) ) ;
#264 = AXIS2_PLACEMENT_3D ( 'NONE', #155, #248, #31 ) ;
#265 = FACE_OUTER_BOUND ( 'NONE', #210, .T. ) ;
#266 = DIRECTION ( 'NONE',  ( 0.0000000000000000000, -1.000000000000000000, -0.0000000000000000000 ) ) ;
#267 = EDGE_CURVE ( 'NONE', #220, #189, #228, .T. ) ;
#268 = DIRECTION ( 'NONE',  ( -0.0000000000000000000, -1.000000000000000000, -0.0000000000000000000 ) ) ;
#269 = FACE_OUTER_BOUND ( 'NONE', #208, .T. ) ;
#270 = DIRECTION ( 'NONE',  ( -0.0000000000000000000, -1.000000000000000000, -0.0000000000000000000 ) ) ;
#271 = DIRECTION ( 'NONE',  ( -0.0000000000000000000, -1.000000000000000000, -0.0000000000000000000 ) ) ;
#272 = ORIENTED_EDGE ( 'NONE', *, *, #273, .T. ) ;
#273 = EDGE_CURVE ( 'NONE', #47, #88, #203, .T. ) ;
#274 = APPROVAL_ROLE ( '' ) ;
#275 = ORIENTED_EDGE ( 'NONE', *, *, #22, .T. ) ;
#276 = APPROVAL_ROLE ( '' ) ;
#277 = AXIS2_PLACEMENT_3D ( 'NONE', #246, #30, #130 ) ;
#278 = CALENDAR_DATE ( 2019, 16, 12 ) ;
#279 = ORIENTED_EDGE ( 'NONE', *, *, #138, .T. ) ;
#280 = LOCAL_TIME ( 14, 43, 29.00000000000000000, #235 ) ;
#281 = EDGE_CURVE ( 'NONE', #220, #97, #117, .T. ) ;
#282 = CARTESIAN_POINT ( 'NONE',  ( 0.0000000000000000000, 78.99999999999998579, -39.59999999999999432 ) ) ;
#283 = DIRECTION ( 'NONE',  ( -0.0000000000000000000, -1.000000000000000000, -0.0000000000000000000 ) ) ;
#284 = AXIS2_PLACEMENT_3D ( 'NONE', #179, #271, #58 ) ;
#285 = FACE_BOUND ( 'NONE', #139, .T. ) ;
#286 = CC_DESIGN_DATE_AND_TIME_ASSIGNMENT ( #211, #299, ( #126 ) ) ;
#287 = DIRECTION ( 'NONE',  ( 1.000000000000000000, 0.0000000000000000000, -1.224646799147353207E-16 ) ) ;
#288 = ORIENTED_EDGE ( 'NONE', *, *, #32, .T. ) ;
#289 = DIRECTION ( 'NONE',  ( 1.000000000000000000, 0.0000000000000000000, -1.224646799147353207E-16 ) ) ;
#290 = CIRCLE ( 'NONE', #165, 45.00000000000000711 ) ;
#291 = DIRECTION ( 'NONE',  ( 0.0000000000000000000, 0.0000000000000000000, -1.000000000000000000 ) ) ;
#292 = CARTESIAN_POINT ( 'NONE',  ( 4.849601324623518020E-15, 0.0000000000000000000, 39.59999999999999432 ) ) ;
#293 = DIRECTION ( 'NONE',  ( 0.0000000000000000000, 0.0000000000000000000, -1.000000000000000000 ) ) ;
#294 = PRODUCT_DEFINITION_FORMATION_WITH_SPECIFIED_SOURCE ( 'HERHANGÝ', '', #106, .NOT_KNOWN. ) ;
#295 = EDGE_CURVE ( 'NONE', #47, #42, #158, .T. ) ;
#296 = ORIENTED_EDGE ( 'NONE', *, *, #190, .T. ) ;
#297 = APPLICATION_PROTOCOL_DEFINITION ( 'international standard', 'config_control_design', 1994, #229 ) ;
#298 = ORIENTED_EDGE ( 'NONE', *, *, #160, .F. ) ;
#299 = DATE_TIME_ROLE ( 'creation_date' ) ;
#300 = PERSON_AND_ORGANIZATION ( #247, #45 ) ;
#301 = SHAPE_DEFINITION_REPRESENTATION ( #35, #191 ) ;
#302 = ORIENTED_EDGE ( 'NONE', *, *, #146, .T. ) ;
#303 = ORIENTED_EDGE ( 'NONE', *, *, #160, .T. ) ;
#304 = ORIENTED_EDGE ( 'NONE', *, *, #255, .F. ) ;
#305 = ADVANCED_FACE ( 'NONE', ( #134 ), #196, .F. ) ;
#306 = CARTESIAN_POINT ( 'NONE',  ( 0.0000000000000000000, 83.26519775715540561, 0.0000000000000000000 ) ) ;
#307 = FACE_OUTER_BOUND ( 'NONE', #162, .T. ) ;
ENDSEC;
END-ISO-10303-21;
